Tablatures guitare Testez votre QI
 


Rechercher sur Guitare-tabs :
 
Accord guitare BmAccord guitare C
Accord guitare EmAccord guitare G


Raphaël | Carla Bruni


Couplet 1 :



          Em

Quatre consonnes et trois voyelles

            C

C'est le prénom de Raphaël

         G

Je le murmure à mon oreille

          Bm

Et chaque lettre m'émerveille



        Couplet 2 :

            Em

C'est le tréma qui m'ensorcelle 

            C

Dans le prénom de Raphaël

             G

Comme il se mêle au a au e

             Bm

Comme il les entremêle au l



        Refrain:

     Em     C       G

Raphaël a l'air d'un ange

            Bm             Em

Mais c'est un diable de l'amour

    C             G

Du bout des anches

          Bm               Em

Et de son regard de velours

       C     G                    Bm    

Quand il se penche, quand il se penche

               Em      C                G        Bm

Mes nuit sont blanches, et pour toujours



e-12----------------------------------------------------12-10-----

B-12----------------------------------------------------------12--

G----14p12-14h15p14-12-12-------12--------------------------------

D-------------------------12h14----------------12-13-14-----------

A----------------------------------12-12-10-14--------------------

E-----------------------------------------------------------------



e-----------------------------------------------------------------

B----------------12-------12----------12--------------------------

G-14p12-12-12-14----14-12----14p12-14----14-12--------------------

D----------------------------------------------14-----------------

A-----------------------------------------------------------------

E-----------------------------------------------------------------



        Couplet 3 :

           Em

J'aime les notes au goût de miel

            C

Dans le prénom de Raphaël 

           G

Je les murmure à mon réveille

          Bm

Entre les plumes du sommeil



        Couplet 4 :

            Em

Et pour que la journée soit belle

         C

Je me parfume à Raphaël 

            G

Peau de chagrin, peintre éternel

          Bm

Archange étrange d'un autre ciel



        Couplet 5 :

         Em

Pas de délice, pas d'étincelle

         C

Pas de malice en Raphaël

                G

Les jours sans lui deviennent ennui

                Bm

Et mes nuits s'ennuient de plus belle



        Couplet 6 :

            Em

Pas d'inquiétude, pas de prélude

           C

Pas de promesse à l'éternel 

          G

Juste l'amour dans notre lit

           Bm

Juste nos vies en arc-en-ciel



        Refrain:

     Em      C              G

Raphaël a l'air d'un sage 

         Bm                 Em

Et ses paroles sont de velours

    C            G                  Bm                  Em

De sa voix grave, et de son regard sans détour

      C     G                     Bm

Quand il raconte, quand il invente

         Em      C         G   Bm

Je peux l'écouter nuit et jour



e-15-12-------------------15-12-------------------10-11-12--------

B----------------12----------------------12-12-12-----------------

G-------14-14-12----14p12-------14-14-12--------------------------

D-----------------------------------------------------------------

A-----------------------------------------------------------------

E-----------------------------------------------------------------



e--------------------------10-11-12-------------------------------

B-10-12-10--------------------------10----10----12----------------

G----------9-12-9-12-14-12-------------12----12----14-12----------

D--------------------------------------------------------14-------

A-----------------------------------------------------------------

E----------------------------------------------------------------- 



e-----------------------------------------------------------------

B-----------------------------------------------------------------

G-----------------------------------------------------------------

D-12h14-14--12h14-14--12h14-14--12h14-14-14----------9h12-12------

A-------------------------------------------14-12-10--------------

E-----------------------------------------------------------------



e-----------------------------------------------------------------

B-----------------------------------------------------------------

G----------------------------------11-11-11-12-12-12-14-12-14-12--

D-9-12-12-9h12-12-9-12-12-14-14-14--------------------------------

A-----------------------------------------------------------------

E-----------------------------------------------------------------



e----------------

B----------------

G----------------

D----------------

A-12-12-10-14----

E----------------



        Couplet 7 :

          Em

Quatre consonnes et trois voyelles

            C

C'est le prénom de Raphaël

         G

Je le murmure à son oreille

           Bm

Ca le fait rire un soleil




   Test QI | Annuaire Guitare | Guitare | Annuaire | Toutes les tablatures | Tous les auteurs

   Photos nature | Forum Photo | Photos voyages